From Within

(/) Slide Up  (\) Slide Down  (h) Hammer On  (p) Pull Off  (b) Bend (r) Release (v) Vibrato
E|--------------------------------------------------------------------------------
B|--------------------------------------------------------------------------------
G|--------------------------------------------------------------------------------
D|--------------------------------------------------------------------------------
A|--------------8--------------8--------8--------------7--------------7--------7--
E|--0--0--0--0-----0--0--0--0-----0--0-----0--0--0--0-----0--0--0--0-----0--0-----



E|-----------------------------------------------------------------------------------
B|-----------------------------------------------------------------------------------
G|-----------------------------------------------------------------------------------
D|-----------------------------------------------------------------------------------
A|--------------10--------------10--------10--------------8--------------8--------8--
E|--0--0--0--0------0--0--0--0------0--0------0--0--0--0-----0--0--0--0-----0--0-----



E|-----------------------------------------------------------------------------------
B|-----------------------------------------------------------------------------------
G|--------------10--7--------------10--7--------------10--9--------------------------
D|--0--0--0--0---------0--0--0--0---------0--0--0--0---------8--8--8--8--7--7--7--7--
A|--0--0--0--0--8---5--0--0--0--0--8---5--0--0--0--0--8---7--8--8--8--8--7--7--7--7--
E|--0--0--0--0---------0--0--0--0---------0--0--0--0---------8--8--8--8--7--7--7--7--



E|-----------------------------------------------------------------------------------
B|-----------------------------------------------------------------------------------
G|--------------------------------------------------------------------------------7--
D|--0--8--7--3--3--6--6--6--0--8--7--1--0--0--0--0--8--7--3--3--6--6--6--0--8--7--7--
A|--0--8--7--3--3--6--6--6--0--8--7--1--0--0--0--0--8--7--3--3--6--6--6--0--8--7--5--
E|--0--8--7--3--3--6--6--6--0--8--7--1--0--0--0--0--8--7--3--3--6--6--6--0--8--7-----



E|--------------------------------------------------------------------------------------------------
B|--------------------------------------------------------------------------------------------------
G|--------------------------------------------------------------------------------------------------
D|--0--0--0--0--0--0--0--0--8--8--8--8--8--8--8--8--7--7--7--7--7--7--7--7--7--7--7--7--7--7--7--7--
A|--0--0--0--0--0--0--0--0--8--8--8--8--8--8--8--8--5--5--5--5--5--5--5--5--5--5--5--5--5--5--5--5--
E|--0--0--0--0--0--0--0--0--8--8--8--8--8--8--8--8--5--5--5--5--5--5--5--5--5--5--5--5--5--5--5--5--



E|-------------------------------------------------------------------
B|-------------------------------------------------------------------
G|--------------10--------------9--12--12--12--12--7--7--7--7--7--7--
D|--0--0--0--0------0--0--0--0---------------------------------------
A|--0--0--0--0--8---0--0--0--0--7--10--10--10--10--5--5--5--5--5--5--
E|--0--0--0--0------0--0--0--0---------------------------------------



E|----------------------------------------
B|----------------------------------------
G|--------------10--5--------------10--9--
D|--0--0--0--0---------0--0--0--0---------
A|--0--0--0--0--8---3--0--0--0--0--8---7--
E|--0--0--0--0---------0--0--0--0---------
http://www.guitartabcreator.com
Guitar Tab Creator is intended to store guitar tab created through the tool. It currently does not support in-line text editing. Any text you place in here will be lost. If you need to comment on your tab, please use the "Tab Notes" section located below.