Briarcliff (DROP C GUITAR TAB)

(/) Slide Up  (\) Slide Down  (h) Hammer On  (p) Pull Off  (b) Bend (r) Release (v) Vibrato
E|-----------------
B|-----------------
G|-----------------
D|--3--5--7--5--8--
A|--1--3--5--3--8--
E|--1--3--5--3--8--



E|--------------
B|--------------
G|-----2-----2--
D|--3--3--3--3--
A|--1--1--1--1--
E|--1-----1-----



E|--------------
B|--------------
G|-----2--------
D|--3--3--3--5--
A|--1--1--1--3--
E|--1-----1--3--



E|-------------------
B|-------------------
G|----------------2--
D|--1--3b0--------3--
A|--1-------3--0--1--
E|--1----------------



E|--------------------------
B|--------------------------
G|-----2--------------------
D|--3--3--3--5--------------
A|--1--1--1--3--------------
E|--1-----1--3--3--3--3--3--



E|--------------------------------------------------
B|--------------------------------------------------
G|--7--5--3--12--10--12--10--7--5--3--12--10--7--5--
D|--------------------------------------------------
A|--5--3--1--10--8---10--8---5--3--1--10--8---5--3--
E|--------------------------------------------------



E|---------------
B|---------------
G|--2--5---------
D|--3--5--10--8--
A|--1--3--8---5--
E|--------8---5--



E|--------------------
B|--------------------
G|--------------------
D|--10--7--10--7--10--
A|--8---5--8---5--8---
E|--8---5--8---5--8---
http://www.guitartabcreator.com
Guitar Tab Creator is intended to store guitar tab created through the tool. It currently does not support in-line text editing. Any text you place in here will be lost. If you need to comment on your tab, please use the "Tab Notes" section located below.