Babe I'm Gonna Leave You

(/) Slide Up  (\) Slide Down  (h) Hammer On  (p) Pull Off  (b) Bend (r) Release (v) Vibrato
E|-------0---------|-----------------|-----------------|-----------------|-
B|---------------1-|-------3-------1-|-------3-------1-|-------1-------0-|-
G|-----2-------2---|-----0-------0---|-----2-------2---|-----2-------1---|-
D|---2-------2-----|---2-------2-----|---0-------0-----|---3-------2-----|-
A|-0-------0-------|-----------------|-----------------|-----------------|-
E|-----------------|-3-------3-------|-2-------2-------|-1-------0-------|-



E|-------3-------0-|-------3-------0-|-----------------|-----------------|-------3-------0-|-
B|-----------------|-----------------|-------3-------1-|-------1-------0-|-----------------|-
G|-----2-------2---|-----0-------0---|-----2-------2---|-----2-------1---|-----2-------2---|-
D|---2-------2-----|---2-------2-----|---0-------0-----|---3-------2-----|---2-------2-----|-
A|-0-------0-------|-----------------|-----------------|-----------------|-0-------0-------|-
E|-----------------|-3-------3-------|-2-------2-------|-1-------0-------|-----------------|-



E|-----------------|-----------------|-----------------|-------3-------0-|-----------------|-
B|-------3-------1-|-------3-------1-|-------1-------0-|-----------------|-------3-------1-|-
G|-----0-------0---|-----2-------2---|-----2-------1---|-----2-------2---|-----0-------0---|-
D|---2-------2-----|---0-------0-----|---3-------2-----|---2-------2-----|---2-------2-----|-
A|-----------------|-----------------|-----------------|-0-------0-------|-----------------|-
E|-3-------3-------|-2-------2-------|-1-------0-------|-----------------|-3-------3-------|-



E|-----------------|-----------------|-------3-------0-|-----------------|-----------------|-
B|-------3-------1-|-------1-------0-|-----------------|-------3-------1-|-------3-------1-|-
G|-----2-------2---|-----2-------1---|-----2-------2---|-----0-------0---|-----2-------2---|-
D|---0-------0-----|---3-------2-----|---2-------2-----|---2-------2-----|---0-------0-----|-
A|-----------------|-----------------|-0-------0-------|-----------------|-----------------|-
E|-2-------2-------|-1-------0-------|-----------------|-3-------3-------|-2-------2-------|-



E|-----------------|-----------------|-----------------|-----------------|-----------------|-
B|-------1-------0-|-------3-------1-|-------3-------0-|-------3-------1-|-------3-------0-|-
G|-----2-------1---|-----2-------2---|-----1-------1---|-----2-------2---|-----1-------1---|-
D|---3-------2-----|---3-------3-----|---2-------2-----|---3-------3-----|---2-------2-----|-
A|-----------------|-----------------|-----------------|-----------------|-----------------|-
E|-1-------0-------|-1-------1-------|-0-------0-------|-1-------1-------|-0-------0-------|-



E|-------0-------0-|-------3-------0-|-----------------|-----------------|-
B|-----------------|-----------------|-------3-------1-|-------1-------0-|-
G|-----2-------2---|-----0-------0---|-----2-------2---|-----2-------1---|-
D|---2-------2-----|---2-------2-----|---0-------0-----|---3-------2-----|-
A|-0-------0-------|-----------------|-----------------|-----------------|-
E|-----------------|-3-------3-------|-2-------2-------|-1-------0-------|-



E|-0----0-0---0--0----0-----0------0--0--0--0--0--0----
B|-1----1-1---1--1----8-----6------6--6--6--6--6--6--0-
G|-2----2-2---2--2----9-----7------7--7--7--7--7--7--0-
D|-2----2-2---2--2----7-----7------7--7--7--7--7--7--0-
A|-0----0-0---0--0----0-----0------0--0--0--0--0--0----
E|-----------------------------------------------------



E|-------0---------|-----------------|-----------------|-----------------|-------3-------0-|-
B|---------------1-|-------3-------1-|-------1-------1-|-------1-------0-|-----------------|-
G|-----2-------2---|-----0-------0---|-----2-------2---|-----2-------1---|-----2-------2---|-
D|---2-------2-----|---2-------2-----|---0-------0-----|---3-------2-----|---2-------2-----|-
A|-0-------0-------|-----------------|-----------------|-----------------|-0-------0-------|-
E|-----------------|-3-------3-------|-2-------2-------|-1-------0-------|-----------------|-



E|-----------------|-----------------|-----------------|-------3-------0-|-----------------|-
B|-------3-------1-|-------3-------1-|-------1-------0-|-----------------|-------3-------1-|-
G|-----0-------0---|-----2-------2---|-----2-------1---|-----2-------2---|-----0-------0---|-
D|---2-------2-----|---0-------0-----|---3-------2-----|---2-------2-----|---2-------2-----|-
A|-----------------|-----------------|-----------------|-0-------0-------|-----------------|-
E|-3-------3-------|-2-------2-------|-1-------0-------|-----------------|-3-------3-------|-



E|-----------------|-----------------|-------3-------0-|-----------------|-----------------|-
B|-------3-------1-|-------1-------0-|-----------------|-------3-------1-|-------3-------1-|-
G|-----2-------2---|-----2-------1---|-----2-------2---|-----0-------0---|-----2-------2---|-
D|---0-------0-----|---3-------2-----|---2-------2-----|---2-------2-----|---0-------0-----|-
A|-----------------|-----------------|-0-------0-------|-----------------|-----------------|-
E|-2-------2-------|-1-------0-------|-----------------|-3-------3-------|-2-------2-------|-



E|-----------------|-----------------|-----------------|-----------------|-----------------|-
B|-------1-------0-|-------3-------1-|-------3-------0-|-------3-------1-|-------3-------0-|-
G|-----2-------1---|-----2-------2---|-----1-------1---|-----2-------2---|-----1-------1---|-
D|---3-------2-----|---3-------3-----|---2-------2-----|---3-------3-----|---2-------2-----|-
A|-----------------|-----------------|-----------------|-----------------|-----------------|-
E|-1-------0-------|-1-------1-------|-0-------0-------|-1-------0-------|-0-------0-------|-



E|-------0---------|-----------------|-----------------|-----------------|-
B|---------------1-|-------3-------1-|-------3-------1-|-------1-------0-|-
G|-----2-------2---|-----0-------0---|-----2-------2---|-----2-------1---|-
D|---2-------2-----|---2-------2-----|---0-------0-----|---3-------2-----|-
A|-0-------0-------|-----------------|-----------------|-----------------|-
E|-----------------|-3-------3-------|-2-------2-------|-1-------0-------|-



E|--0---0-0---0--0-----0----0----0--0--0--0--0--0------
B|--1---1-1---1--1-----8----6----6--6--6--6--6--6--0---
G|--2---2-2---2--2-----9----7----7--7--7--7--7--7--0---
D|--2---2-2---2--2-----7----7----7--7--7--7--7--7--0---
A|--0---0-0---0--0-----0----0----0--0--0--0--0--0------
E|-----------------------------------------------------



E|--------------------|-----------------|-
B|-------5---------10-|-------8-------6-|-
G|-----4---------9----|-----7-------7---|-
D|---2-------2/7------|---7-------7-----|-
A|-0-------0----------|-0-------0-------|-
E|--------------------|-----------------|-



E|-0-0-0---0--0-|-0-0-0---0--0-|-0-0-0---0--0-|-1-1-1---0-0-0-0-|-
B|-1-1-1-0-1--1-|-1-1-1-0-1--1-|-1-1-1-0-1--1-|-1-1-1-0-0-0-0-0-|-
G|-2-2-2-0-2--2-|-0-0-0-0-0--0-|-2-2-2-0-2--2-|-2-2-2-0-1-1-1-1-|-
D|-2-2-2-0-2--2-|-2-2-2-0-2--2-|-0-0-0-0-0--0-|-3-3-3-0-2-2-2-2-|-
A|-0-0-0---0--0-|-3-3-3---3--3-|--------------|-3-3-3---2-2-2-2-|-
E|--------------|-3-3-3---3--3-|-2-2-2---2--2-|-1-1-1---0-0-0-0-|-



E|-0---0-0---0--0----0----0----0--0--0--0--0--0----
B|-1---1-1---1--1----8----6----6--6--6--6--6--6--0-
G|-2---2-2---2--2----9----7----7--7--7--7--7--7--0-
D|-2---2-2---2--2----7----7----7--7--7--7--7--7--0-
A|-0---0-0---0--0----0----0----0--0--0--0--0--0----
E|-------------------------------------------------



E|-------0---------|-----------------|-----------------|-----------------|-------3-------0-|-
B|---------------1-|-------3-------1-|-------3-------1-|-------1-------0-|-----------------|-
G|-----2-------2---|-----0-------0---|-----2-------2---|-----2-------1---|-----2-------2---|-
D|---2-------2-----|---2-------2-----|---0-------0-----|---3-------2-----|---2-------2-----|-
A|-0-------0-------|-----------------|-----------------|-----------------|-0-------0-------|-
E|-----------------|-3-------3-------|-2-------2-------|-1-------0-------|-----------------|-



E|-----------------|-----------------|-----------------|-------3-------0-|-------1-------0-|-
B|-------3-------1-|-------3-------1-|-------1-------0-|-----------------|-----------------|-
G|-----0-------0---|-----2-------2---|-----2-------1---|-----2-------2---|-----0-------0---|-
D|---2-------2-----|---0-------0-----|---3-------2-----|---2-------2-----|---2-------2-----|-
A|-----------------|-----------------|-----------------|-0-------0-------|-----------------|-
E|-3-------3-------|-2-------2-------|-1-------0-------|-----------------|-3-------3-------|-



E|-------0---------|-----------------|-----------------|-----------------|-----------------|-
B|---------------3-|-------1-------0-|-------1-------1-|-------1-------1-|-------1-------1-|-
G|-----2-------2---|-----2-------1---|-----2-------2---|-----0-------0---|-----2-------2---|-
D|---0-------0-----|---3-------2-----|---2-------2-----|---2-------2-----|---0-------0-----|-
A|-----------------|-----------------|-0-------0-------|-----------------|-----------------|-
E|-2-------2-------|-1-------0-------|-----------------|-3-------3-------|-2-------2-------|-



E|-----------------|-------3-------1-|-------0-------1-|-------0---------|-----------------|-
B|-------1-------0-|-----------------|-----------------|---------------3-|-------1-------0-|-
G|-----2-------1---|-----2-------2---|-----0-------0---|-----2-------2---|-----2-------1---|-
D|---3-------2-----|---2-------2-----|---2-------2-----|---0-------0-----|---3-------2-----|-
A|-----------------|-0-------0-------|-----------------|-----------------|-----------------|-
E|-1-------0-------|-----------------|-3-------3-------|-2-------2-------|-1-------0-------|-



E|-----------------|-----------------|-----------------|-----------------|-
B|-------1-------1-|-------1-------1-|-------1-------1-|-------1-------0-|-
G|-----2-------2---|-----0-------0---|-----2-------2---|-----2-------1---|-
D|---2-------2-----|---2-------2-----|---0-------0-----|---3-------2-----|-
A|-0-------0-------|-----------------|-----------------|-----------------|-
E|-----------------|-3-------3-------|-2-------2-------|-1-------0-------|-



E|--0--0--0-----0----0--|--0--0--0-----0----0--|--0--0--0-------0--|--1--1--1-----0--0--0--0--|--
B|--1--1--1--0--1----1--|--1--1--1--0--1----1--|--1--1--1--0----1--|--1--1--1--0--0--0--0--0--|--
G|--2--2--2--0--2----2--|--0--0--0--0--0----0--|--2--2--2--0----2--|--2--2--2--0--1--1--1--1--|--
D|--2--2--2--0--2----2--|--2--2--2--0--2----2--|--0--0--0--0----0--|--3--3--3--0--2--2--2--2--|--
A|--0--0--0-----0----0--|--3--3--3-----3----3--|-------------------|--3--3--3-----2--2--2--2--|--
E|----------------------|--3--3--3-----3----3--|--2--2--2-------2--|--1--1--1-----0--0--0--0--|--



E|-------0---------|-----------------|-----------------|-----------------|-------3-------1-|-
B|---------------1-|-------3-------1-|-------1-------1-|-------1-------0-|-----------------|-
G|-----2-------2---|-----0-------0---|-----2-------2---|-----2-------1---|-----2-------2---|-
D|---2-------2-----|---2-------2-----|---0-------0-----|---3-------2-----|---2-------2-----|-
A|-0-------0-------|-----------------|-----------------|-----------------|-0-------0-------|-
E|-----------------|-3-------3-------|-2-------2-------|-1-------0-------|-----------------|-



E|-------1-------0-|-------0---------|-----------------|-------3-------1-|-------1-------0-|-
B|-----------------|---------------3-|-------1-------0-|-----------------|-----------------|-
G|-----0-------0---|-----2-------2---|-----2-------1---|-----2-------2---|-----0-------0---|-
D|---2-------2-----|---0-------0-----|---3-------2-----|---2-------2-----|---2-------2-----|-
A|-----------------|-----------------|-----------------|-0-------0-------|-----------------|-
E|-3-------3-------|-2-------2-------|-1-------0-------|-----------------|-3-------3-------|-



E|-------0---------|-----------------|-------3-------1-|-------0-------1-|-------0---------|-
B|---------------3-|-------1-------0-|-----------------|-----------------|---------------3-|-
G|-----2-------2---|-----2-------1---|-----2-------2---|-----0-------0---|-----2-------2---|-
D|---0-------0-----|---3-------2-----|---2-------2-----|---2-------2-----|---0-------0-----|-
A|-----------------|-----------------|-0-------0-------|-----------------|-----------------|-
E|-2-------2-------|-1-------0-------|-----------------|-3-------3-------|-2-------2-------|-



E|-----------------|-0-0-0---0--0-|-0-0-0---0--0-|-0-0-0---0--0-|-1-1-1---0-0-0-0-|-
B|-------1-------0-|-1-1-1-0-1--1-|-1-1-1-0-1--1-|-1-1-1-0-1--1-|-1-1-1-0-0-0-0-0-|-
G|-----2-------1---|-2-2-2-0-2--2-|-0-0-0-0-0--0-|-2-2-2-0-2--2-|-2-2-2-0-1-1-1-1-|-
D|---3-------2-----|-2-2-2-0-2--2-|-2-2-2-0-2--2-|-0-0-0-0-0--0-|-3-3-3-0-2-2-2-2-|-
A|-----------------|-0-0-0---0--0-|-3-3-3---3--3-|--------------|-3-3-3---2-2-2-2-|-
E|-1-------0-------|--------------|-3-3-3---3--3-|-2-2-2---2--2-|-1-1-1---0-0-0-0-|-



E|-------0---------|-----------------|-----------------|-----------------|-------3-------1-|-
B|---------------1-|-------3-------1-|-------3-------1-|-------1-------0-|-----------------|-
G|-----2-------2---|-----0-------0---|-----2-------2---|-----2-------1---|-----2-------2---|-
D|---2-------2-----|---2-------2-----|---0-------0-----|---3-------2-----|---2-------2-----|-
A|-0-------0-------|-----------------|-----------------|-----------------|-0-------0-------|-
E|-----------------|-3-------3-------|-2-------2-------|-1-------0-------|-----------------|-



E|-------1-------0-|-------0---------|-----------------|-------3-------1-|-------1-------0-|-
B|-----------------|---------------3-|-------1-------0-|-----------------|-----------------|-
G|-----0-------0---|-----2-------2---|-----2-------1---|-----2-------2---|-----0-------0---|-
D|---2-------2-----|---0-------0-----|---3-------2-----|---2-------2-----|---2-------2-----|-
A|-----------------|-----------------|-----------------|-0-------0-------|-----------------|-
E|-3-------3-------|-2-------2-------|-1-------0-------|-----------------|-3-------3-------|-



E|-------0---------|-----------------|---------------|-----------------|-----------------|---
B|---------------3-|-------1-------0-|-------1-------|-------1-------1-|-------1-------1-|---
G|-----2-------2---|-----2-------1---|-----2-------2-|-----0-------0---|-----2-------2---|---
D|---0-------0-----|---3-------2-----|---2-------2---|---2-------2-----|---0-------0-----|---
A|-----------------|-----------------|-0-------0-----|-----------------|-----------------|---
E|-2-------2-------|-1-------0-------|---------------|-3-------3-------|-2-------2-------|---



E|-----------------|-------0---------|-----------------|-----------------|-----------------|-
B|-------1-------0-|---------------1-|-------3-------1-|-------1-------1-|-------1-------0-|-
G|-----2-------1---|-----2-------2---|-----0-------0---|-----2-------2---|-----2-------1---|-
D|---3-------2-----|---2-------2-----|---2-------2-----|---0-------0-----|---3-------2-----|-
A|-----------------|-0-------0-------|-----------------|-----------------|-----------------|-
E|-1-------0-------|-----------------|-3-------3-------|-2-------2-------|-1-------0-------|-



E|-0-0-0---0--0-|-0-0-0---0--0-|-0-0-0----0-|-1-1-1---0-0-0-0-|-
B|-1-1-1-0-1--1-|-1-1-1-0-1--1-|-1-1-1-0--1-|-1-1-1-0-0-0-0-0-|-
G|-2-2-2-0-2--2-|-0-0-0-0-0--0-|-2-2-2-0--2-|-2-2-2-0-1-1-1-1-|-
D|-2-2-2-0-2--2-|-2-2-2-0-2--2-|-0-0-0-0--0-|-3-3-3-0-2-2-2-2-|-
A|-0-0-0---0--0-|-3-3-3---3--3-|------------|-3-3-3---2-2-2-2-|-
E|--------------|-3-3-3---3--3-|-2-2-2----2-|-1-1-1---0-0-0-0-|-



E|-1------------|-0------------|-1----------|-0---------------|-
B|-1------------|-0------------|-1----------|-0---------------|-
G|-2------------|-1------------|-2----------|-1---------------|-
D|-3------------|-2------------|-3----------|-2---------------|-
A|-3------------|-2------------|-3----------|-2---------------|-
E|-1------------|-0------------|-1----------|-0---------------|-



E|--------------|--------------|--------------|--------------|-
B|-10--------10-|-10--------10-|-10--------10-|-10--------10-|-
G|-9------9-----|-8------8-----|-7------7-----|-7------7-----|-
D|-7---7--------|-7---7--------|-7---7--------|-7---7--------|-
A|--------------|--------------|--------------|--------------|-
E|-9------------|-8------------|-7------------|-6------------|-



E|-----------------------0--|-----------------------0--|--------------------------------5----------------------|--
B|-----------0--------------|-----------0--------------|-----------0--------------------5----------------------|--
G|--------5-----------5-----|--------5-----------5-----|--------5-----------------------5----------------------|--
D|-----7-----------7--------|-----7-----------7--------|-----7--------------------------7----------------------|--
A|--0-----------0-----------|--0-----------0-----------|--0-----------------------------7----------------------|--
E|--------------------------|--------------------------|--------------------------------5----------------------|--
http://www.guitartabcreator.com
Guitar Tab Creator is intended to store guitar tab created through the tool. It currently does not support in-line text editing. Any text you place in here will be lost. If you need to comment on your tab, please use the "Tab Notes" section located below.