random solo

(/) Slide Up  (\) Slide Down  (h) Hammer On  (p) Pull Off  (b) Bend (r) Release (v) Vibrato


E|--------------------------14--13--12--15----------------------------------------------------------
B|--12----------13--14----------------------15----------------------13--14--------------13--14------
G|------12--13----------14----------------------15--15--15--14--13----------14--14--13--------------
D|----------------------------------------------------------------------------------------------14--
A|--------------------------------------------------------------------------------------------------
E|--------------------------------------------------------------------------------------------------



E|-12-13-14----------------------------13-13-14-15-------16-17-11--------------------
B|----------12-13-14-14-14-14-13-13-13-------------15-16----------10-----------------
G|-------------------------------------------------------------------9---------------
D|---------------------------------------------------------------------8-------------
A|-----------------------------------------------------------------------7-----6-5---
E|-------------------------------------------------------------------------7-6-----5-
http://www.guitartabcreator.com
Guitar Tab Creator is intended to store guitar tab created through the tool. It currently does not support in-line text editing. Any text you place in here will be lost. If you need to comment on your tab, please use the "Tab Notes" section located below.