composition

(/) Slide Up  (\) Slide Down  (h) Hammer On  (p) Pull Off  (b) Bend (r) Release (v) Vibrato

E|-----8---------------------------------------------------------------------------------------
B|--8-----11--8--11b13-------------------------------------------------------------------------
G|------------------------8--10b10--8------8------------8b9-------8----------------------------
D|-------------------------------------10-----10--10-----------------10--8--10----10-----------
A|-------------------------------------------------------------8----------------------10-------
E|---------------------------------------------------------------------------------------------



E|--------------------------------------------------------------------------------------------
B|-----------------------------------------9b11--9--8-----------------------------------------
G|-------------------------------7--8--10--------------10b10--10--7h8h10----------8b9---------
D|------------------------------------------------------------------------7h8h10-------10v----
A|--9--8----8h9p8v----------------------------------------------------------------------------
E|--------------------11--8-------------------------------------------------------------------
http://www.guitartabcreator.com
Guitar Tab Creator is intended to store guitar tab created through the tool. It currently does not support in-line text editing. Any text you place in here will be lost. If you need to comment on your tab, please use the "Tab Notes" section located below.