Elegy

(/) Slide Up  (\) Slide Down  (h) Hammer On  (p) Pull Off  (b) Bend (r) Release (v) Vibrato

E|--------------------------------------------------------------------------------------------------
B|--------------------------------------------------------------------------------------------------
G|--------------------------------4-----------2-----------------------------------4-----------2-----
D|--------2-----------5--------4-----------2--------------2-----------5--------4-----------2--------
A|-----2-----------5--------2--------2--0--------------2-----------5--------2--------2--0-----------
E|--0--------0--3--------3-----------------------3--0--------0--3--------3-----------------------3--



E|--------------------------------------------------------------------------------------------
B|--------------------------------------------------------------------------------------------
G|---------------------4-------2-----------------------4-------2------------------------------
D|-----2-------5-----4-------2---------2-------5-----4-------2---5-4-2v-5-4-2-----5-4-2-------
A|---2-------5-----2-----2-0---------2-------5-----2-----2-0------------------3-2-------2-3---
E|-0-----0-3-----3---------------3-0-----0-3-----3--------------------------------------------



E|--0---------------------------
B|--0---------------------------
G|--0---------------------------
D|--1--4--5--9--7--9--10--9--7--
A|--1---------------------------
E|--0--2--3--7--5--7--8---7--5--
http://www.guitartabcreator.com
Guitar Tab Creator is intended to store guitar tab created through the tool. It currently does not support in-line text editing. Any text you place in here will be lost. If you need to comment on your tab, please use the "Tab Notes" section located below.