Slipping Away

(/) Slide Up  (\) Slide Down  (h) Hammer On  (p) Pull Off  (b) Bend (r) Release (v) Vibrato
E|-----------------------
B|---5---7---2-----------
G|---6---5---2---4---6---
D|---7---7---2---0---0---
A|---5---5---------------
E|-----------------------



E|---------------
B|-----------2---
G|---6---4---2---
D|---0---0---2---
A|---------------
E|---------------



E|-----------0---------------
B|---5---3---0---5---5---7---
G|---6---4---1---6---7---9---
D|---6---4---2---6---7---9---
A|---4---2---2---4---5---7---
E|-----------0---------------



E|-------------------
B|--------2--12--14--
G|--6--4--2----------
D|--0--0--2--11--11--
A|-------------------
E|-------------------
http://www.guitartabcreator.com
Guitar Tab Creator is intended to store guitar tab created through the tool. It currently does not support in-line text editing. Any text you place in here will be lost. If you need to comment on your tab, please use the "Tab Notes" section located below.