Fourth Trumpet Sound

(/) Slide Up  (\) Slide Down  (h) Hammer On  (p) Pull Off  (b) Bend (r) Release (v) Vibrato


E|-----------------------------------------------
B|-----------------------------------------------
G|-----------------------------------------------
D|-----------------------------------------------
A|---------------------5--6--7-----------2----2--
E|--0--7--10--0--6--0-----------0--3--0--3----3--



E|-------------------------------------
B|-------------------------------------
G|-------------------------------------
D|-------------------------------------
A|--------2--------2--------2----2--0--
E|--0--0--3--0--0--3--0--0--3----3--2--



E|-------------------------------
B|-------------------------------
G|-------------------------------
D|-------------------------------
A|-------------------2--1--0-----
E|--0----0--3--0--0-----------3--



E|---------------------------------------------------------------------
B|---------------------------------------------------------------------
G|---------------------------------------------------------------------
D|----------------------------------------------12--14-----------------
A|--0----0----2--2--2--2--2--2--2--2--------------------12--13--14-----
E|--2----2----3--3--3--3--3--3--3--3----12--15----------------------0--



E|-------------------------------------------------
B|-------------------------------------------------
G|-------------------------------------------------
D|-------------------------------------------------
A|---------------------5--6--7-----------2------2--
E|--0--7--10--0--6--0-----------0--3--0--3------3--
http://www.guitartabcreator.com
Guitar Tab Creator is intended to store guitar tab created through the tool. It currently does not support in-line text editing. Any text you place in here will be lost. If you need to comment on your tab, please use the "Tab Notes" section located below.