Colonial Drunk

(/) Slide Up  (\) Slide Down  (h) Hammer On  (p) Pull Off  (b) Bend (r) Release (v) Vibrato


E|-------------------------
B|-------------------------
G|-------------------------
D|-------------------------
A|---------------4--1------
E|--0------0--1------------



E|-----------------------------------
B|-----------------------------------
G|-----------------------------------
D|----------4----------------5----7--
A|--0--0----5--0---------------------
E|--0--0-------0--3v--0--------------



E|-------------------------------------------------
B|-------------------------------------------------
G|-------------------------------------------------
D|-------------------------------------------------
A|-------------------------------------------------
E|--0--0--3--0--5--0--3--0--0--0--3--0--5--3----3--



E|----------------------------------------------------
B|----------------------------------------------------
G|----------------------------------------------------
D|----------------------------------------------------
A|--0--0--5--0--7--0--0--5--0--0--0--5--0--7--5----5--
E|--0--0--3--0--5--0--0--3--0--0--0--3--0--5--3----3--



E|------------------------------------------
B|------------------------------------------
G|------------------------------------------
D|--4--4--4--4--4--4--4--4------------------
A|--5--5--5--5--5--5--5--5----------5----2--
E|----------------------------------3----0--
http://www.guitartabcreator.com
Guitar Tab Creator is intended to store guitar tab created through the tool. It currently does not support in-line text editing. Any text you place in here will be lost. If you need to comment on your tab, please use the "Tab Notes" section located below.