She Hits Me

Artist: THE 4 OF US | Song: SHE HITS ME | Album: MAN ALIVE

Capo 2nd Fret

Chords used: G: 320033 | D: xx0232 | C: x32030 | A7sus4: x02030 | D/B: x20030 |Em7: 020030

Intro/Verse: G D C D

Bridge: A7sus4 D/B C D C D

Chorus: Same as verse

Break: Em7 G D C (x4*) *except second time replace C with A7sus4, and fourth time ends on the D.


Tab 1: verse & chorus
E|--3-----------2-----0--------2-----------
B|-----3-----3-----3-----3--------3--------
G|--------0-----------------0--------2-----
D|--------------0--------------0-----------
A|--------------------3--------------------
E|--3-----------------------------------0--


Tab 2: bridge
E|-------0-------------0---0---2-----0---0---------2-----
B|-----3---3---------3---3---3---3-----3---3-----3---3---
G|---0---------0---0---------------2-----------2---------
D|-----------------------------0-------------0-----------
A|-0---------2---3-------------------3-------------------
E|-----------------------------------------------------2-


Tab 3: break
E|-----------------------2-----0--------------------------------2-----0--------3--
B|--------3--------3--------3-----3-----3--------3--------3--------3-----3--------
G|-----0--------0-----0-----------------------0--------0-----0--------------0-----
D|-----------------------0--------------------------------------0-----------------
A|-----------------------------3-----3--------------------------------0-----------
E|--0--------3-----------------------------0--------3-----------------------------


SHE HITS ME (Written by Brendan Murphy, Declan Murphy and Paul Murphy)

I’ve got a friend I can count on alone
She sits beside me when I am on my own
And slips inside me with her own liquid ease
She comes around to keep me company
And when my body’s bruised and sore
She dims the lights and locks every door
Leaves me legless and too blind to see
She takes my arm to kill me gently

So tight I can’t let it show
Temptation I can’t let go

She hits me with her eyes
She leaves me paralysed
She hits me with her eyes
She hits me

Bad situation my lover’s a drink
She reels me in when I am on the brink
And stuns my senses with her own special style
She steals my body and drugs it for a while

Can’t you see I’ve got nowhere to hide
I can’t recover but I don’t mind

She hits me with her eyes
She leaves me paralysed
She hits me with her eyes
She hits me

Just maybe I’ve had enough
Of all your sympathizing
I need a tonic not an antidote
Just watch this sinner slide http://www.guitartabcreator.com
Guitar Tab Creator is intended to store guitar tab created through the tool. It currently does not support in-line text editing. Any text you place in here will be lost. If you need to comment on your tab, please use the "Tab Notes" section located below.