Whatever the fuck

(/) Slide Up  (\) Slide Down  (h) Hammer On  (p) Pull Off  (b) Bend (r) Release (v) Vibrato


E|----------------------------------------------------|-----------------------------------------------
B|----------------------------------------------------|-----------------------------------------------
G|----------------------------------------------------|-----------------------------------------------
D|--------------------------------6-----5--6----------|--------5-----5--------6-----6--------5-----4--
A|--------6-----6--------5-----------------------6----|-----------------------------------------------
E|--0--0-----0-----0--0-----0--0-----0--------0-------|--0--0-----0-----0--0-----0-----0--0-----0-----



E|--------------------------------------------
B|--------------------------------------------
G|--------------------------------------------
D|-----------------------------------2--------
A|--------2-----2--------3-----1--------3--2--
E|--0--0-----0-----0--0-----0-----0-----------



E|--
B|--
G|--
D|--
A|--
E|--
http://www.guitartabcreator.com
Guitar Tab Creator is intended to store guitar tab created through the tool. It currently does not support in-line text editing. Any text you place in here will be lost. If you need to comment on your tab, please use the "Tab Notes" section located below.