try this shit

(/) Slide Up  (\) Slide Down  (h) Hammer On  (p) Pull Off  (b) Bend (r) Release (v) Vibrato


E|----------------------------|---------------------------
B|----------------------------|---------------------------
G|-----10--9------------------|----------------10--9------
D|----------------11--10------|------------10---------10--
A|--9---------10----------11--|--9--10--9-----------------
E|----------------------------|---------------------------



E|-------------------------------------------------
B|--------10--------9---------------------9--8-----
G|------------------------9-----10-----8--------9--
D|-------------------------------------------------
A|--7--7------7--7-----7-----7------7--------------
E|-------------------------------------------------
http://www.guitartabcreator.com
Guitar Tab Creator is intended to store guitar tab created through the tool. It currently does not support in-line text editing. Any text you place in here will be lost. If you need to comment on your tab, please use the "Tab Notes" section located below.