December stoltice Demo-Ending-

(/) Slide Up  (\) Slide Down  (h) Hammer On  (p) Pull Off  (b) Bend (r) Release (v) Vibrato


E|---------------------------------------|---------------------------------------
B|---------------------------------------|---------------------------------------
G|---------------------------------------|---------------------------------------
D|---------------------------------------|---------------------------------------
A|---10-9----11------10-9----11----------|---10-9----11------10-9----11----------
E|-9------10----10-9------10----10-9-8---|-9------10----10-9------10----10-9-8---



E|--------------------------------|-------------------------
B|--------------------------------|-------------------------
G|--------------------------------|-------------------7---6-
D|---------------6---5---7--------|-----------------7---5---
A|-----5---5-----------------6-5--|-----5---5-----4---------
E|-0-0---0---0-0---0---0---0------|-0-0---0---0-0-----------
http://www.guitartabcreator.com
Guitar Tab Creator is intended to store guitar tab created through the tool. It currently does not support in-line text editing. Any text you place in here will be lost. If you need to comment on your tab, please use the "Tab Notes" section located below.