randomriffs (Two seperate)

(/) Slide Up  (\) Slide Down  (h) Hammer On  (p) Pull Off  (b) Bend (r) Release (v) Vibrato

E|----------------------------------------------------------
B|----------------------------------------------------------
G|-------8-7------------8-7------------8-7---------8-7------
D|-----------8--------------8--------------8-----------8----
A|-0-0-0-------10-0-0-0-------10-0-0-0-------0-0-0-------10-
E|----------------------------------------------------------



E|--------------------------------------------------------------------
B|--------------------------------------------------------------------
G|--------------------------------------------------------------------
D|--------------------------------------------------------------------
A|--7--0--3--6--3--0--7--0--3--6--5--0--1--4--1--0--5--0--1--4--1--0--
E|--------------------------------------------------------------------
http://www.guitartabcreator.com
Guitar Tab Creator is intended to store guitar tab created through the tool. It currently does not support in-line text editing. Any text you place in here will be lost. If you need to comment on your tab, please use the "Tab Notes" section located below.