:DDDropCb

(/) Slide Up  (\) Slide Down  (h) Hammer On  (p) Pull Off  (b) Bend (r) Release (v) Vibrato


E|-----------------------------------
B|-----------------------------------
G|-----------------------------------
D|-----------------7-8-7-5---5-------
A|-----5-------5-8---------8---7-4---
E|-5-8---8-5-8-----------------------



E|---------------------------------
B|---------------------------------
G|---------------------------------
D|-----------------6-7-6-4---4-----
A|-----4-------4-7---------7---6-3-
E|-4-7---7-4-7---------------------
http://www.guitartabcreator.com
Guitar Tab Creator is intended to store guitar tab created through the tool. It currently does not support in-line text editing. Any text you place in here will be lost. If you need to comment on your tab, please use the "Tab Notes" section located below.