Nights in White Satin - Solo

(/) Slide Up  (\) Slide Down  (h) Hammer On  (p) Pull Off  (b) Bend (r) Release (v) Vibrato


E|--------------------------------------------------------
B|--------------------------------------------------------
G|--------9--11--12--11--9------9--11--9----------8b8-----
D|--9--9--------------------12------------12--10----------
A|--------------------------------------------------------
E|--------------------------------------------------------



E|------------------------------------------------------------
B|-------------------------10--8------8--10--8----------------
G|--------7-----9--11--12---------11------------11--9--11b11--
D|--9--9-----9------------------------------------------------
A|------------------------------------------------------------
E|------------------------------------------------------------



E|------------------------------------------------------------
B|--12--11--10--8-----10--12--13--12--13--12--10--12--13--12--
G|-----------------9------------------------------------------
D|------------------------------------------------------------
A|------------------------------------------------------------
E|------------------------------------------------------------



E|------12--10--12--12--12--12--12--12--
B|--12----------------------------------
G|--------------------------------------
D|--------------------------------------
A|--------------------------------------
E|--------------------------------------
http://www.guitartabcreator.com
Guitar Tab Creator is intended to store guitar tab created through the tool. It currently does not support in-line text editing. Any text you place in here will be lost. If you need to comment on your tab, please use the "Tab Notes" section located below.