Solo

(/) Slide Up  (\) Slide Down  (h) Hammer On  (p) Pull Off  (b) Bend (r) Release (v) Vibrato

E|------------------------------------------------------------------------------
B|------------------------------------------------------------------------------
G|------------------------------------------------------------------------------
D|------------------6--7--9--9/10--9--6h7--7/10--9--6h7--7/10--7--6h7--7/10-----
A|------------7--8--------------------------------------------------------------
E|--7--8--10--------------------------------------------------------------------



E|-------------------7--8/10--8------7--8/10--8-----7--8--10--8--7-----
B|------------9--10--------------10--------------9---------------------
G|--7--9--10-----------------------------------------------------------
D|---------------------------------------------------------------------
A|---------------------------------------------------------------------
E|---------------------------------------------------------------------



E|-----------------------------------
B|--10--9----------------------------
G|---------10--9--7------------------
D|-------------------10--9--7--6--7--
A|-----------------------------------
E|-----------------------------------
http://www.guitartabcreator.com
Guitar Tab Creator is intended to store guitar tab created through the tool. It currently does not support in-line text editing. Any text you place in here will be lost. If you need to comment on your tab, please use the "Tab Notes" section located below.