Death

(/) Slide Up  (\) Slide Down  (h) Hammer On  (p) Pull Off  (b) Bend (r) Release (v) Vibrato


E|-----------------------------
B|-----------------------------
G|-----------------------------
D|-----------------------4--3--
A|-----------------------3--3--
E|--1--1--1--1--1--1--1--------



E|---------------------
B|---------------------
G|---------------------
D|----------4v---------
A|------3v------3v-----
E|--1v-----------------



E|------------------
B|------------------
G|------------------
D|----------5v------
A|------4v------4v--
E|--2v--------------



E|-----------------------------
B|-----------------------------
G|-----------------------------
D|--4v--3v---------------------
A|----------4v--3v----------3--
E|------------------4v--3v--1--



E|--------------------------------------------------------------------------
B|--------------------------------------------------------------------------
G|--------------------------------------------------------------------------
D|--------------------------------------------------------------------------
A|--3-----------3-----------3--------------------3--5--6--6--5--3-----------
E|--1--1--1--1--1--1--1--1--1--1--1--1--3--4--6--------------------6--4--3--



E|--------------------------
B|--------------------------
G|--------------------------
D|--5-----7-----8-----9-----
A|-----4-----------7-----8--
E|-----------5--------------



E|--------------------------------------------------------------------------
B|--------------------------------------------------------------------------
G|--------------------------------------------------------------------------
D|--------------------------------------------------------------------------
A|-----8--7-----7--6-----8--7-----7--6-----8--7-----7--6-----8--7-----7--6--
E|--5--------5--------5--------5--------6--------6--------6--------6--------
http://www.guitartabcreator.com
Guitar Tab Creator is intended to store guitar tab created through the tool. It currently does not support in-line text editing. Any text you place in here will be lost. If you need to comment on your tab, please use the "Tab Notes" section located below.