Chains Of Hate song

(/) Slide Up  (\) Slide Down  (h) Hammer On  (p) Pull Off  (b) Bend (r) Release (v) Vibrato

E|----------------------------------------------
B|----------------------------------------------
G|----------------------------------------------
D|----------------------------------------------
A|--------7h8--------6h7--------5h6--------4h5--
E|--0--0-------0--0-------0--0-------0--0-------



E|-----------------------------------
B|-----------------------------------
G|-----------------------------------
D|--------------------8--7--6--5--4--
A|--7--7--------------8--7--6--5--4--
E|--5--5--0--0--0--0-----------------



E|-----------------------------------------------------
B|-----------------------------------------------------
G|-----------------------------------------------------
D|--------------------------------------8--7--6--5--4--
A|--7--7--------------7--7--------------8--7--6--5--4--
E|--5--5--0--0--0--0--5--5--0--0--0--0-----------------



E|--------------------------------
B|--------------------------------
G|--------------------------------
D|--------------------8--4--7--5--
A|--7--7--------------8--4--7--5--
E|--5--5--0--0--0--0--------------



E|--------------------------
B|--------------------------
G|--------------------------
D|--------8--6--7--5--6--4--
A|--7--7--8--6--7--5--6--4--
E|--5--5--------------------



E|-----
B|-----
G|-----
D|-----
A|--6--
E|--6--



E|-----------------------------------------
B|-----------------------------------------
G|-----------------------------------------
D|-----------------------------------------
A|-----8--7-----7--6-----8--7-----7--6--7--
E|--5--------5--------6--------6--------5--
http://www.guitartabcreator.com
Guitar Tab Creator is intended to store guitar tab created through the tool. It currently does not support in-line text editing. Any text you place in here will be lost. If you need to comment on your tab, please use the "Tab Notes" section located below.