The Plague of Deathly Whispers

(/) Slide Up  (\) Slide Down  (h) Hammer On  (p) Pull Off  (b) Bend (r) Release (v) Vibrato


E|-----------------------------------------------------------------
B|-----------------------------------------------------------------
G|-----2---4---5-------0---2---3-------3---5---6-------------------
D|---2---2---2---2---0---0---0---0---3---3---3---3-----3-------5---
A|-0-------------------------------1-----------------3---3---5---5-
E|-----------------2-------------------------------1-------3-------



E|-12-10----------------12-10-------12-13-15-13-12-10----------12-10----------
B|-------13-12-13-12-10-------13-12-------------------10-12-13-------13-12----
G|-------------------------------------------------------------------------12-
D|----------------------------------------------------------------------------
A|----------------------------------------------------------------------------
E|----------------------------------------------------------------------------



E|---------------------------------------------
B|---------------------------------------------
G|---------------------------------------------
D|---------------------------------------------
A|---3-5-3-------3---1-3-5-3-1---0-3-0---2-5-2-
E|-5-------5-3-3---3-----------1-------3-------



E|-
B|-
G|-
D|-
A|-
E|-



E|-
B|-
G|-
D|-
A|-
E|-
http://www.guitartabcreator.com
Guitar Tab Creator is intended to store guitar tab created through the tool. It currently does not support in-line text editing. Any text you place in here will be lost. If you need to comment on your tab, please use the "Tab Notes" section located below.