hereward college theme

(/) Slide Up  (\) Slide Down  (h) Hammer On  (p) Pull Off  (b) Bend (r) Release (v) Vibrato


E|-------0---------------0-----------0---------0-------
B|-----0---0-----------0---0-------1---1---0h1---1-----
G|---1-------1-------1-------1---2-------2---------2---
D|---------------2-------------------------------------
A|-------------2---------------0-----------------------
E|-0---------------0-----------------------------------



E|-------3-----------3---------------------
B|-----5---5-------5---5-------------------
G|---5-------5---5-------5-----------------
D|-------------------------------3-5---1-3-
A|-3-----------3-----------3-5-6-----5-----
E|-----------------------------------------
http://www.guitartabcreator.com
Guitar Tab Creator is intended to store guitar tab created through the tool. It currently does not support in-line text editing. Any text you place in here will be lost. If you need to comment on your tab, please use the "Tab Notes" section located below.