e

(/) Slide Up  (\) Slide Down  (h) Hammer On  (p) Pull Off  (b) Bend (r) Release (v) Vibrato

E|----------------------------------------------------------------
B|-------8---10-8-7---------7---5-7-------5---3-5-------7---8-7-5-
G|-----9---9--------9-----7---7---------5---5---------7---7-------
D|---9------------------7-------------5-------------7-------------
A|-7------------------5-------------3-------------5---------------
E|----------------------------------------------------------------



E|-0-7-7-0-8-7-0-5-7-0-3-0-5-0-2-3-5-
B|-----------------------------------
G|-----------------------------------
D|-----------------------------------
A|-----------------------------------
E|-----------------------------------



E|---------------------------------------
B|---------------------------------------
G|---------------------------------------
D|--9----9----9--9--9----9--9--9---------
A|--7----7----7--7--7----7--7--7---------
E|--------------------------------9--10--
http://www.guitartabcreator.com
Guitar Tab Creator is intended to store guitar tab created through the tool. It currently does not support in-line text editing. Any text you place in here will be lost. If you need to comment on your tab, please use the "Tab Notes" section located below.