Death Of A Black Rose- Knocking on Deaths Door

(/) Slide Up  (\) Slide Down  (h) Hammer On  (p) Pull Off  (b) Bend (r) Release (v) Vibrato
E|-------------------------------
B|-------------------------------
G|-------------------------------
D|---------------5--4--2---------
A|--2--2------2--3--2--0--3p2p0--
E|--0--0h3p0--0------------------



E|---------------------------------------------------------------
B|--15----14--12----15----17--14----15----14--12-----------------
G|--------------------------------------------------14h15h16p12--
D|---------------------------------------------------------------
A|---------------------------------------------------------------
E|---------------------------------------------------------------



E|---------------------------------------------------
B|--19p12h15p12h19p12h15p12h17p12h14p12h17p12h14p12--
G|---------------------------------------------------
D|---------------------------------------------------
A|---------------------------------------------------
E|---------------------------------------------------



E|--14p12-------------------------------------------------13--12/14p12p10------------------
B|---------15--14b14--12--------------------------10--12-------------------14--12--10--12--
G|-------------------------------------9--11--12-------------------------------------------
D|--------------------------9--11--12------------------------------------------------------
A|-----------------------------------------------------------------------------------------
E|-----------------------------------------------------------------------------------------



E|--5b5b5--5b5--3--3\2h3p2--0--------
B|-----------------------------------
G|-----------------------------------
D|-----------------------------------
A|-----------------------------------
E|-----------------------------12\0--
http://www.guitartabcreator.com
Guitar Tab Creator is intended to store guitar tab created through the tool. It currently does not support in-line text editing. Any text you place in here will be lost. If you need to comment on your tab, please use the "Tab Notes" section located below.