Death Of A Black Rose- Inception of the UnDead

(/) Slide Up  (\) Slide Down  (h) Hammer On  (p) Pull Off  (b) Bend (r) Release (v) Vibrato

E|-----7-----9-----10--9-----12-----10-----9--10--9------
B|--7-----7-----7---------7------7------7------------10--
G|-------------------------------------------------------
D|-------------------------------------------------------
A|-------------------------------------------------------
E|-------------------------------------------------------



E|--------------------5-------------
B|-----------5--7--5-----5--7b5-----
G|--4--6--7-------------------------
D|----------------------------------
A|----------------------------------
E|----------------------------------



E|-14p10------14p10------14p10------14p10------15p10------15p10------15p10------15p10------
B|-------12p7-------12p7-------12p7-------12p7-------12p8-------12p8-------12p8-------12p8-
G|-----------------------------------------------------------------------------------------
D|-----------------------------------------------------------------------------------------
A|-----------------------------------------------------------------------------------------
E|-----------------------------------------------------------------------------------------



E|-17p14-------17p14-------17p14-------17p14-------15p12-------15p12-------15p12-------15p12---------
B|-------15p10-------15p10-------15p10-------15p10-------14p10-------14p10-------14p10-------14p10---
G|---------------------------------------------------------------------------------------------------
D|---------------------------------------------------------------------------------------------------
A|---------------------------------------------------------------------------------------------------
E|---------------------------------------------------------------------------------------------------



E|--17b
B|-----
G|-----
D|-----
A|-----
E|-----
http://www.guitartabcreator.com
Guitar Tab Creator is intended to store guitar tab created through the tool. It currently does not support in-line text editing. Any text you place in here will be lost. If you need to comment on your tab, please use the "Tab Notes" section located below.