Death of a Black Rose-Heart of War- tony lead

(/) Slide Up  (\) Slide Down  (h) Hammer On  (p) Pull Off  (b) Bend (r) Release (v) Vibrato


E|-------------------------------------------------------------------
B|-------------------------------------------------------------------
G|-------------------------------------------------------------------
D|---9---9---9---9---7---7---7---7---5---5---5---5---4---4---4---4---
A|---7---7---7---7---5---5---5---5---3---3---3---3---2---2---2---2---
E|-------------------------------------------------------------------



E|-------------------------------------------------
B|-------------------------------------------------
G|-------------------------------------------------
D|---9---------7---------5---------4---------------
A|---7---------5---------3---------2---------------
E|-------------------------------------1/14---14---



E|-------------------
B|---5---8---3---1---
G|-------------------
D|-------------------
A|-------------------
E|-------------------
http://www.guitartabcreator.com
Guitar Tab Creator is intended to store guitar tab created through the tool. It currently does not support in-line text editing. Any text you place in here will be lost. If you need to comment on your tab, please use the "Tab Notes" section located below.