Death of a Black Rose-Heart of War Charlie lead

(/) Slide Up  (\) Slide Down  (h) Hammer On  (p) Pull Off  (b) Bend (r) Release (v) Vibrato
E|-0-3-3-3-3-3-3-3---3-3-3-3-3-3-3---3-3-3-3-3-3-3---3-3-3-3-5-3---
B|-----------------3---------------1---------------0---------------
G|-----------------------------------------------------------------
D|-----------------------------------------------------------------
A|-----------------------------------------------------------------
E|-----------------------------------------------------------------



E|-0-2-3-2-0-2-3-2---2-3-2---2-3-2---2-3-2---2-3-2---2-3-2-5-3-2-3-
B|-----------------3-------3-------1-------1-------0---------------
G|-----------------------------------------------------------------
D|-----------------------------------------------------------------
A|-----------------------------------------------------------------
E|-----------------------------------------------------------------



E|-0-2-0-2---
B|-0-3-1-4---
G|-1-2-0-4---
D|-2-0-2-4---
A|-2-0-3-2---
E|-0-0-0-2---



E|-----------------------------------------------------------------------------
B|-----------------------------------------------------------------------------
G|-----------------------------------------------------------------------------
D|-9-10-7-9----7------9-10-7-9----7------9-10-7-9----7------9-10-7-9----7------
A|----------10---9-10----------10---9-10----------10---9-10----------10---9-10-
E|-----------------------------------------------------------------------------



E|-3--2--0--3-2-0-2-3-2-0---
B|--------------------------
G|--------------------------
D|--------------------------
A|--------------------------
E|--------------------------



E|-12-12-12-12-12-12-12-12-14-14-14-14-14-14-14-14-15-15-15-15-15-15-15-15-17-15-14-15-14-12-11-
B|----------------------------------------------------------------------------------------------
G|----------------------------------------------------------------------------------------------
D|----------------------------------------------------------------------------------------------
A|----------------------------------------------------------------------------------------------
E|----------------------------------------------------------------------------------------------



E|--12--14--15--12--14--15--15--3--2--0-----0--2-------0--
B|---------------------------------------3--------3b0--0--
G|-----------------------------------------------------1--
D|-----------------------------------------------------2--
A|-----------------------------------------------------2--
E|-----------------------------------------------------0--
http://www.guitartabcreator.com
Guitar Tab Creator is intended to store guitar tab created through the tool. It currently does not support in-line text editing. Any text you place in here will be lost. If you need to comment on your tab, please use the "Tab Notes" section located below.