Death of a Black Rose- Die For Sin

(/) Slide Up  (\) Slide Down  (h) Hammer On  (p) Pull Off  (b) Bend (r) Release (v) Vibrato


E|-------14-------14-------15----14----12----14-------10-------12-------9----10----12-
B|-12-12----12-12----12-12----12----12----12----12-12----12-12----12-12---12----12----
G|------------------------------------------------------------------------------------
D|------------------------------------------------------------------------------------
A|------------------------------------------------------------------------------------
E|------------------------------------------------------------------------------------



E|-----------------------------------------
B|-----------------------------------------
G|-----------------------------------------
D|-----------7-----------5-----------------
A|-----9-----5-----7-----3-----2-----0-----
E|-----7-----------5-----------------------



E|-9b9-7-5-7-5-9b9-7-5-7-5-9b9-7-5-7-5------9b9-7-5-7-5-9b9-7-5-7-5-9b9-7-5-7-5---5-9-7-
B|-------------------------------------7----------------------------------------7-------
G|--------------------------------------------------------------------------------------
D|--------------------------------------------------------------------------------------
A|--------------------------------------------------------------------------------------
E|--------------------------------------------------------------------------------------



E|-9b9-7---------7-9b9-7------------
B|-------10-7-10---------10-7-------
G|----------------------------9-7---
D|--------------------------------9-
A|----------------------------------
E|----------------------------------
http://www.guitartabcreator.com
Guitar Tab Creator is intended to store guitar tab created through the tool. It currently does not support in-line text editing. Any text you place in here will be lost. If you need to comment on your tab, please use the "Tab Notes" section located below.