Death Of A Black Rose- Burning Hearts

(/) Slide Up  (\) Slide Down  (h) Hammer On  (p) Pull Off  (b) Bend (r) Release (v) Vibrato
E|--10--8-------------------------------------------------------------------
B|---------10--8----8h9h10p8-------------------------------------8----------
G|------------------------------10--7----10p9p7--10p9p7--10p9p7-----7\0-----
D|--------------------------------------------------------------------------
A|--------------------------------------------------------------------------
E|--------------------------------------------------------------------------



E|---------------------------------------------------------
B|----------------8h10p8----11--10--10--8------------------
G|--7----9--10-----------------------------10--9--7--5--6--
D|---------------------------------------------------------
A|---------------------------------------------------------
E|---------------------------------------------------------



E|-------------------
B|-------------------
G|-------------------
D|-------------------
A|-------------------
E|-------------------



E|--13--12--10--8--10----------------------------------
B|---------------------8--10--8--10--6--8--6--8--------
G|-----------------------------------------------5--7--
D|-----------------------------------------------------
A|-----------------------------------------------------
E|-----------------------------------------------------



E|-15b17-17-17-17-17-17-17-17p15-15-15-15-15-15-15-15b13-13-13-13-13-13-13-13p12p10-10\8h10-
B|------------------------------------------------------------------------------------------
G|------------------------------------------------------------------------------------------
D|------------------------------------------------------------------------------------------
A|------------------------------------------------------------------------------------------
E|------------------------------------------------------------------------------------------



E|-21-21-21-21-21-21-21-21-17-17-17-17-17-17-17-17-15-15-15-15-15-15-15-15-13p12p10-13p12p10-
B|-------------------------------------------------------------------------------------------
G|-------------------------------------------------------------------------------------------
D|-------------------------------------------------------------------------------------------
A|-------------------------------------------------------------------------------------------
E|-------------------------------------------------------------------------------------------
http://www.guitartabcreator.com
Guitar Tab Creator is intended to store guitar tab created through the tool. It currently does not support in-line text editing. Any text you place in here will be lost. If you need to comment on your tab, please use the "Tab Notes" section located below.