Death of a Black Rose- burning bridges

(/) Slide Up  (\) Slide Down  (h) Hammer On  (p) Pull Off  (b) Bend (r) Release (v) Vibrato


E|-0-2-4--4-5-4-2--2-4-2-0------0---------------0-
B|-------------------------2--2---2---------2-5---
G|----------------------------------2---2-5-------
D|------------------------------------------------
A|------------------------------------------------
E|------------------------------------------------



E|-----------------------------------------------
B|-4-6-7-6-9-7-6-7-4-6-7-6-9-7-6-7-----4-6-9b9-7-
G|---------------------------------5-7-----------
D|-----------------------------------------------
A|-----------------------------------------------
E|-----------------------------------------------



E|-12-11----12-11----12-11-12-11----12-11-------------------------
B|-------12-------12-------------12-------12-10-12-7-5-9-7-5-7-10-
G|----------------------------------------------------------------
D|----------------------------------------------------------------
A|----------------------------------------------------------------
E|----------------------------------------------------------------



E|-12-11----12-11----12-11-12-11----12-11------------------------
B|-------12-------12-------------12-------12-10-12-7-5-9-7-5-7-2-
G|---------------------------------------------------------------
D|---------------------------------------------------------------
A|---------------------------------------------------------------
E|---------------------------------------------------------------
http://www.guitartabcreator.com
Guitar Tab Creator is intended to store guitar tab created through the tool. It currently does not support in-line text editing. Any text you place in here will be lost. If you need to comment on your tab, please use the "Tab Notes" section located below.