Fury of the Storm

(/) Slide Up  (\) Slide Down  (h) Hammer On  (p) Pull Off  (b) Bend (r) Release (v) Vibrato


E|----------------------------------------------------------
B|----------------------------------------------------------
G|-------------------------14-16-14-------------------------
D|-14-14-16-17-16-14-17-17----------17-16-16-17-16-14-16-17-
A|----------------------------------------------------------
E|----------------------------------------------------------



E|-------------------------------------------------
B|-------------------------------------------------
G|-14-14-14-14-------------------------------------
D|-------------17-17-17-17-16-16-16-16-------------
A|-------------------------------------17-17-17-17-
E|-------------------------------------------------



E|-------------------------------------------------------------
B|-------------------------------------------------------------
G|-------------------------14-16-14----------------------------
D|-14-14-16-17-16-14-17-17----------17-16-16-16-16-16-16-16-16-
A|-------------------------------------------------------------
E|-------------------------------------------------------------



E|-------------------------------------------------
B|-------------------------------------------------
G|----------------------------14-16-14----14-------
D|-14-14-14-16-17-16-14-16-17----------17----17-14-
A|-------------------------------------------------
E|-------------------------------------------------



E|-------------------------------------------
B|-------------------------------------------
G|-------14-16-14----14-14-16-14-16-14----14-
D|-17-17----------17-------------------17----
A|-------------------------------------------
E|-------------------------------------------



E|----------------------------------------------
B|----------------------------------------------
G|-------14-16-14----14-16-17-16-14-16-14----14-
D|-17-17----------17----------------------17----
A|----------------------------------------------
E|----------------------------------------------



E|----------------------------------------
B|----------------------------------------
G|-16-16-16-16-17-17-17-17-16-16-16-16-14-
D|----------------------------------------
A|----------------------------------------
E|----------------------------------------



E|-------------------------------------------
B|-------------------------------------------
G|-------14-16-14----14-14-16-14----14-------
D|-17-17----------17-------------17----17-14-
A|-------------------------------------------
E|-------------------------------------------



E|-------------------------------------------
B|-------------------------------------------
G|-------14-16-14----14-14-16-14----14-------
D|-17-17----------17-------------17----17----
A|----------------------------------------17-
E|-------------------------------------------



E|-------------------------------------------
B|-------------------------------------------
G|-------14-16-14----14-16-17-16-14-16-14----
D|-17-17----------17----------------------17-
A|-------------------------------------------
E|-------------------------------------------



E|----------------------------------------
B|-15-15-15-15-13-13-13-13-12-12-12-12-10-
G|----------------------------------------
D|----------------------------------------
A|----------------------------------------
E|----------------------------------------



E|----------------------------------------
B|-------------------------------------16-
G|-------14-16-14----14-14-16-14----------
D|-17-17----------17-------------17-17----
A|----------------------------------------
E|----------------------------------------



E|----------
B|----------
G|----------
D|-17-16-14-
A|----------
E|----------



E|----------------------------------------------
B|----------------------------------------------
G|-17-16-14----------14-16-17-16-14----14-16----
D|----------17----17----------------17-------17-
A|-------------17-------------------------------
E|----------------------------------------------



E|----------------------------------------------
B|-------------------------------------------15-
G|-------14-16-14----14-14-16-14----14-16-17----
D|-17-17----------17-------------17-------------
A|----------------------------------------------
E|----------------------------------------------



E|----------------------------------------
B|-17-17-17-17-19-19-19-19-17-17-17-17-15-
G|----------------------------------------
D|----------------------------------------
A|----------------------------------------
E|----------------------------------------



E|-------------------------------------------
B|-------------------------------------------
G|-------14-16-14----14-16-17-16-14-16-14----
D|-17-17----------17----------------------17-
A|-------------------------------------------
E|-------------------------------------------



E|-------------------------------------------------
B|-------------------------15----------------------
G|-------14-16-14----14-16----16-14-16-14----14-16-
D|-17-17----------17----------------------17-------
A|-------------------------------------------------
E|-------------------------------------------------



E|-----------------------------------------
B|-12-12-0-0-13-13-0-0-12-12-0-0-13-13-0-0-
G|-----------------------------------------
D|-----------------------------------------
A|-----------------------------------------
E|-----------------------------------------



E|------------------------------------------
B|-7-10-7-0-8-11-8-0-9-12-9-0-10-13-10-0-10-
G|------------------------------------------
D|------------------------------------------
A|------------------------------------------
E|------------------------------------------



E|-
B|-
G|-
D|-
A|-
E|-



E|-
B|-
G|-
D|-
A|-
E|-
http://www.guitartabcreator.com
Guitar Tab Creator is intended to store guitar tab created through the tool. It currently does not support in-line text editing. Any text you place in here will be lost. If you need to comment on your tab, please use the "Tab Notes" section located below.