Stones licks A D E

(/) Slide Up  (\) Slide Down  (h) Hammer On  (p) Pull Off  (b) Bend (r) Release (v) Vibrato

E|--------------------------------------------------------------------------
B|-----------------------------------3--3--2--0-----------------------------
G|-----------------------------------------------2--1-----------------------
D|--------------------------------------------------------------------------
A|-----5--6--5--6--7--7--7--4--5--4--------------------2--4--0--4--5--7--7--
E|--5-----------------------------------------------------------------------



E|-----------------------------------------------------------------------------
B|-----------------------------------------------------3--3--3--2--------------
G|-----------------------------------------------------------------4--2--1--2--
D|--------------7--7--6--4--------6--------------------------------------------
A|--0--4--5--7--------------7--7-----7--0--4--4--5--7--------------------------
E|-----------------------------------------------------------------------------



E|-----------------------------------------------------------------------------
B|-----------------------------------------------------------------------------
G|-----------------------------------------------------------------------------
D|--4--5--6-----------------------------------4-----4-----4--5-----------------
A|-----------7--0--4--0--4--5--7--4--5--7--5-----5-----5--------4--2--0--0-----
E|--------------------------------------------------------------------------0--



E|--------------------------------------------------------------------0--------
B|--------------------------------------------------------3--3--3--2-----------
G|-----------------------------------------------------------------------2--1--
D|-----------1-----1-----1--------------------------9--------------------------
A|--2--2--2-----2-----2-----2--0--4--5--7--7--7--7-----7-----------------------
E|-----------------------------------------------------------------------------



E|-----------------------------------------------------
B|-----------------------------------------------------
G|-----------------------------------------------------
D|--------------6-----6-----6--------------------------
A|--7--7--7--7-----7-----7-----7--0--0--0--4--0--4--5--
E|-----------------------------------------------------
http://www.guitartabcreator.com
Guitar Tab Creator is intended to store guitar tab created through the tool. It currently does not support in-line text editing. Any text you place in here will be lost. If you need to comment on your tab, please use the "Tab Notes" section located below.