Stones Am licks

(/) Slide Up  (\) Slide Down  (h) Hammer On  (p) Pull Off  (b) Bend (r) Release (v) Vibrato

E|-----------------------0-----------------------------0--------------0--------
B|--------------------------0-----------5-----------3-----3--------------0-----
G|-----------------------------------4-----------2-----------------5--------5--
D|--------------------------------5-----------3-----------------7--------------
A|-----3--5--7--5--3-----------0-----------0-----------------0-----------------
E|--5-----------------5--------------------------------------------------------



E|--2--------------------------------------------------------------------
B|-----3--------------3--------------3-----------------------------------
G|--------4--2--2--4-----2--4-----0-----0--------------------------------
D|-----------------------------4-----------------------7--------------7--
A|-----------------------------------------------------------------------
E|-----------------------------------------5--5--0--5-----5--0--3--5-----



E|--12--10-------------15--14----------------------------------------------------------
B|----------12--10-------------17--17--17--15------15--17--15--------------12----------
G|------------------9--------------------------16--------------14--12--14------14--14--
D|-------------------------------------------------------------------------------------
A|-------------------------------------------------------------------------------------
E|-------------------------------------------------------------------------------------



E|----------------------------------------------12----------------------------------
B|------------------------------------------15--------------12--------------12------
G|--12--14--12--11--12--11--12--11--14--12--------------14----------12--14------14--
D|--------------------------------------------------14----------14------------------
A|----------------------------------------------------------------------------------
E|----------------------------------------------------------------------------------



E|--
B|--
G|--
D|--
A|--
E|--
http://www.guitartabcreator.com
Guitar Tab Creator is intended to store guitar tab created through the tool. It currently does not support in-line text editing. Any text you place in here will be lost. If you need to comment on your tab, please use the "Tab Notes" section located below.