Song 001

(/) Slide Up  (\) Slide Down  (h) Hammer On  (p) Pull Off  (b) Bend (r) Release (v) Vibrato
E|--0--0--------0--0--
B|--5--0--------5--0--
G|--6--6--------0--0--
D|--7--7--------6--6--
A|--------------7--7--
E|--------------------



E|--0--0--0------7--
B|--2--3--5------8--
G|--3--4--6------7--
D|--4--5--7------9--
A|--4--5--7------7--
E|--2--3--5---------



E|--5--1--7-----
B|--5--1--7--8--
G|--6--2--7--8--
D|--7--3--9--8--
A|--7--3--9--6--
E|--5--1--7-----



E|--0--2--0--3--
B|--3--2--0--3--
G|--4--4--4--5--
D|--4--4--4--5--
A|--2--2--2--3--
E|--------------



E|--0-----------0-----------0-----------0-----------
B|--5-----------5-----------2-----------2-----------
G|--6-----------4-----------2-----------1-----------
D|--0--0--0--0--0--0--0--0--0--0--0--0--0--0--0--0--
A|--------------------------------------------------
E|--------------------------------------------------



E|--------------------------------------------------
B|--------------------------------------------------
G|--2-----------4-----------2-----------2-----------
D|--4-----------3-----------4-----------3-----------
A|--0--0--0--0--0--0--0--0--0--0--0--0--0--0--0--0--
E|--------------------------------------------------



E|--0--0---0--0--
B|--0--0---0--0--
G|--2--9---8--6--
D|--3--10--9--7--
A|--3--10--9--7--
E|--1--8---7--5--
http://www.guitartabcreator.com
Guitar Tab Creator is intended to store guitar tab created through the tool. It currently does not support in-line text editing. Any text you place in here will be lost. If you need to comment on your tab, please use the "Tab Notes" section located below.