Walk in the shadows rhythm

(/) Slide Up  (\) Slide Down  (h) Hammer On  (p) Pull Off  (b) Bend (r) Release (v) Vibrato

E|----------------------------------------------------------------------------------------------
B|----------------------------------------------------------------------------------------------
G|----------------------------------------------------------------------------------------------
D|----------------------------------------------------------------------------------------------
A|--4--4--4--4--4--4--4--4-----2--4--5--4--5--4----4--4--4--4--4--4--4--4-----2--4--5--4--5--4--
E|--2--2--2--2--2--2--2--2--2----------------------2--2--2--2--2--2--2--2--2--------------------



E|----------------------------------------------------------------------------------------------
B|----------------------------------------------------------------------------------------------
G|----------------------------------------------------------------------------------------------
D|--------------------------------2--4--2--4--2----------------------------------2--4--2--4--2--
A|--4--4--4--4--4--4--4--4-----4-------------------4--4--4--4--4--4--4--4-----4-----------------
E|--2--2--2--2--2--2--2--2--2----------------------2--2--2--2--2--2--2--2--2--------------------



E|----------------------------------------------------------------------------------------
B|----------------------------------------------------------------------------------------
G|----------------------------------------------------------------------------------------
D|-----------------------------4--2-----4--4-------------------------------4--2-----4-----
A|--2--2--2--2--2--2--2--2--2--------2----------2--2--2--2--2--2--2--2--2--------2-----4--
E|--0--0--0--0--0--0--0--0----------------------0--0--0--0--0--0--0--0--------------------



E|----------------------------------------------------------------------------------------
B|----------------------------------------------------------------------------------------
G|-----------------------------2--1-----1----------------------------------2--1-----2-----
D|--------------------------2--------2-----4----------------------------2--------2-----4--
A|--2--2--2--2--2--2--2--2----------------------2--2--2--2--2--2--2--2--------------------
E|--0--0--0--0--0--0--0--0----------------------0--0--0--0--0--0--0--0--------------------



E|--
B|--
G|--
D|--
A|--
E|--
http://www.guitartabcreator.com
Guitar Tab Creator is intended to store guitar tab created through the tool. It currently does not support in-line text editing. Any text you place in here will be lost. If you need to comment on your tab, please use the "Tab Notes" section located below.