Walk in the shadows

(/) Slide Up  (\) Slide Down  (h) Hammer On  (p) Pull Off  (b) Bend (r) Release (v) Vibrato


E|-------------------------------------------------------------------------------------------
B|-------------------------------------------------------------------------------------------
G|------------------------------------------------------6--6--7--6---------6--7--9--7--6-----
D|--------6--6--7--6-------6--7--9--7--9--7--6----7--9--------------9---------------------9--
A|--7--9--------------9----------------------------------------------------------------------
E|-------------------------------------------------------------------------------------------



E|-----------------------------------------------------------------------------------------------
B|--------------------------------------------------------------------------------14--12---------
G|--13--11--10--11--10--11------14--13--11--13--11--13----14--13--11--16--14--13----------14-----
D|-----------------------------------------------------------------------------------------------
A|-----------------------------------------------------------------------------------------------
E|-----------------------------------------------------------------------------------------------



E|-----------------------------
B|--15--14--12--12--14--15--12b
G|-----------------------------
D|-----------------------------
A|-----------------------------
E|-----------------------------
http://www.guitartabcreator.com
Guitar Tab Creator is intended to store guitar tab created through the tool. It currently does not support in-line text editing. Any text you place in here will be lost. If you need to comment on your tab, please use the "Tab Notes" section located below.