Makedamnsure

(/) Slide Up  (\) Slide Down  (h) Hammer On  (p) Pull Off  (b) Bend (r) Release (v) Vibrato
E|-----------------------------------------------
B|-----------------------------------------------
G|--------2--------2--------2--------2--------3--
D|-----------0--0-----3--3--------------1--1-----
A|--1--1-----------------------------------------
E|-----------------------------3--3--------------



E|-----------------------------------------------
B|-----------------------------------------------
G|--------2--------2--------2--------2--------5--
D|-----------0--0--------------------------5-----
A|--1--1--------------0--0--------------3--------
E|-----------------------------3--3--------------



E|----------------------------
B|----------------------------
G|-----7-------8-----7-----5--
D|--8--7--5----8--8--7--5--5--
A|--8--5--5----6--8--5--5--3--
E|--6-----3-------6-----3-----
http://www.guitartabcreator.com
Guitar Tab Creator is intended to store guitar tab created through the tool. It currently does not support in-line text editing. Any text you place in here will be lost. If you need to comment on your tab, please use the "Tab Notes" section located below.