One Day by Jack Savoretti

OK so this is a great song and there are no good tabs anywhere, so I figured I would share my own tab. This is a very basic version because I can't quite figure out the intricacies that Jack does, but hopefully people will build off of it!

http://www.youtube.com/watch?v=_0n2OV6Zdso



(/) Slide Up (\) Slide Down (h) Hammer On (p) Pull Off (b) Bend (r) Release (v) Vibrato

Am G D/F#
E|---------x--------------x-------------x------------x-------
B|---------x--------------x-------------x------------x-------
G|--2------x---------0----x---------2---x--------2---x------- x3
D|--2------x------0-------x------0------x-----0------x---0---
A|--0------x--------------x-------------x------------x-------
E|---------x---3----------x---2---------x--2---------x-------
1 2 3 4 1 2 3 4

C G9*
E|---------x--------------x--------------x------------x------
B|---------x---------1----x--/3-----3----x--------3---x------
G|--0------x---------0----x--/0-----0----x--------0---x------
D|--2------x------2-------x--/4-----4----x-----4------x------
A|--3------x---3----------x--/5-----5----x---5--------x------
E|---------x--------------x--------------x------------x------
1 2 3 4 1 2 3 4


A few notes:

1. the rows of "x" denotes a right hand slap, which comes on every other beat
2. the numbers below the tab are the beats, and the song is played in 4/4 time

*This is just my best guess
Guitar Tab Creator is intended to store guitar tab created through the tool. It currently does not support in-line text editing. Any text you place in here will be lost. If you need to comment on your tab, please use the "Tab Notes" section located below.