Too Soon

(/) Slide Up  (\) Slide Down  (h) Hammer On  (p) Pull Off  (b) Bend (r) Release (v) Vibrato

E|--------------------------------------------------------------------------
B|--------------------------------------------------------------------------
G|-------------3----------------------------5--5----5--5----5----5--5----5--
D|--3--3----3-------3--3----3--3----3--3----5--5----5--5----5----5--5----5--
A|--3--3----3--3----3--3----3--3----3--3----3--3----3--3--------------------
E|--1--1----1--1----1--1----1--1----1--1--------------------5----5--5----5--



E|-----------------------------------------------------------------
B|-----------------------------------------------------------------
G|-----------------------------------------------------------------
D|-----------------------------------------------------------------
A|---------------------------------3-3-3-3-3-3-3-3-0-0-0-0-0-0-2-0-
E|-1-1-1-1-1-1-1-1-1-1-1-1-1-1-1-1---------------------------------



E|--1----3----5--------------------------------
B|--1----3----5--------------------------------
G|--2----5----5--------------------------------
D|--3----5----7--------------------------------
A|--3----3----7--------------------------------
E|--1---------5--------------------------------



E|----------------------------------------------------------------------------
B|----------------------------------------------------------------------------
G|--5--5----5--5----5----5--5----5--------------------------------------------
D|--5--5----5--5----5----5--5----5----3----3--3----3--3----3----3--3----3--3--
A|------------------------------------3----3--3----3--3----3----3--3----3--3--
E|--3--3----3--3----5----5--5----5----1----1--1----1--1----1----1--1----1--1--



E|-----------------------------------------------------------------
B|-----------------------------------------------------------------
G|-----------------------------------------------------------------
D|-----------------------------------------------------------------
A|-----------------------------------------------------------------
E|-3-3-3-3-3-3-3-3-5-5-5-5-5-5-5-5-1-1-1-1-1-1-1-1-1-1-1-1-1-1-1-1-



E|-3-5-1-
B|-3-5-1-
G|-4-5-2-
D|-5-7-3-
A|-5-7-3-
E|-3-5-1-
http://www.guitartabcreator.com
Guitar Tab Creator is intended to store guitar tab created through the tool. It currently does not support in-line text editing. Any text you place in here will be lost. If you need to comment on your tab, please use the "Tab Notes" section located below.