West End Blues (key of G)

(/) Slide Up  (\) Slide Down  (h) Hammer On  (p) Pull Off  (b) Bend (r) Release (v) Vibrato


E|-------|-----------|-----------|-----------|-------|---------|-
B|-----3-|-----3-----|-----------|---5---5-3-|-3-----|-5-5-3-5-|-
G|-3-4---|-3-4---3-4-|---4-------|-4---4-----|---3---|---------|-
D|-------|-----------|-----5-4-3-|-----------|-----5-|---------|-
A|-------|-----------|-5---------|-----------|-------|---------|-
E|-------|-----------|-----------|-----------|-------|---------|-



E|-----------------|-2-----------|-------------------|-------------------------3---3-8-3-8-11-|-
B|-5-3-------------|---5-3---3---|-5-----------------|-------------------5---5---5------------|-
G|-------5-4-------|-------4---4-|---------4-7-5-7-4-|---2-3-4---4-5-3-5---5------------------|-
D|-----5-------7-5-|-------------|-------5-----------|-5-------5------------------------------|-
A|-----------5-----|-------------|---6-7-------------|----------------------------------------|-
E|-----------------|-------------|-------------------|----------------------------------------|-
http://www.guitartabcreator.com
Guitar Tab Creator is intended to store guitar tab created through the tool. It currently does not support in-line text editing. Any text you place in here will be lost. If you need to comment on your tab, please use the "Tab Notes" section located below.