Nuages (reminders only)

(/) Slide Up  (\) Slide Down  (h) Hammer On  (p) Pull Off  (b) Bend (r) Release (v) Vibrato


E|-----3-2-1-0-----------|-----3-2-1-0-----------|-----5---------|-----5---------|-
B|-0-1---------4-3-2-1-1-|-0-1---------4-3-2-1-1-|-------8-6-5-8-|-------8-6-5-6-|-
G|-----------------------|-----------------------|---------------|---------------|-
D|-----------------------|-----------------------|-6-7-----------|-7-7-----------|-
A|-----------------------|-----------------------|---------------|---------------|-
E|-----------------------|-----------------------|---------------|---------------|-



E|-----5-------------|---------5-8-|-|-----3-2-1-0---------0-|-----8-7-6-5--------------|-
B|-------6-----------|---5-6-8-----|-|-0-1---------4-3-6-1---|-------------9-8-11-7-6-6-|-
G|---------7-5-4-3-4-|-7-----------|-|-----------------------|-5-5----------------------|-
D|-7-7---------------|-------------|-|-----------------------|--------------------------|-
A|-------------------|-------------|-|-----------------------|--------------------------|-
E|-------------------|-------------|-|-----------------------|--------------------------|-



E|-------13-11-9-11-13-|-------13-11-9-11-13-|-----3-2-1-0---|-------5-1-|-
B|---------------------|---------------------|-0-1---------4-|-3-6-0-----|-
G|-10-10---------------|-10-10---------------|---------------|-----------|-
D|---------------------|---------------------|---------------|-----------|-
A|---------------------|---------------------|---------------|-----------|-
E|---------------------|---------------------|---------------|-----------|-
http://www.guitartabcreator.com
Guitar Tab Creator is intended to store guitar tab created through the tool. It currently does not support in-line text editing. Any text you place in here will be lost. If you need to comment on your tab, please use the "Tab Notes" section located below.