Djangology main melody (DC fingering)

(/) Slide Up  (\) Slide Down  (h) Hammer On  (p) Pull Off  (b) Bend (r) Release (v) Vibrato


E|-------7-7-|-------7-7-|-----2-5-3-|-7-5h7p5-3-7-5h7-5-3-|-------|-----------|---
B|---5-8-----|---4-7-----|---3-------|---------------------|-5---5-|---0-1-2-3-|---
G|-6---------|-5---------|-4---------|---------------------|---5---|-2---------|---
D|-----------|-----------|-----------|---------------------|-------|-----------|---
A|-----------|-----------|-----------|---------------------|-------|-----------|---
E|-----------|-----------|-----------|---------------------|-------|-----------|---



E|-------------------|---------------|-
B|-------------------|---------------|-
G|-----0-2/3\2-0---0-|-3\2-0---0-3-2-|-
D|-0-2-----------2---|-------2-------|-
A|-------------------|---------------|-
E|-------------------|---------------|-
http://www.guitartabcreator.com
Guitar Tab Creator is intended to store guitar tab created through the tool. It currently does not support in-line text editing. Any text you place in here will be lost. If you need to comment on your tab, please use the "Tab Notes" section located below.