Bye Bye Blackbird (beginning)

(/) Slide Up  (\) Slide Down  (h) Hammer On  (p) Pull Off  (b) Bend (r) Release (v) Vibrato
E|-5-5-5-5-6-5-5-|-5-3-3-|-3-----|---------|-|-6-6-6-6-8-6-6-|-6-5-5-|-5-3-3-|-3-5-3---|-
B|---------------|-------|---6-6-|-6-8-6-5-|-|---------------|-------|-------|-------6-|-
G|---------------|-------|-------|---------|-|---------------|-------|-------|---------|-
D|---------------|-------|-------|---------|-|---------------|-------|-------|---------|-
A|---------------|-------|-------|---------|-|---------------|-------|-------|---------|-
E|---------------|-------|-------|---------|-|---------------|-------|-------|---------|-



E|---8-8-8-8-6-6-5-----|---6-6-6-6-5---------|-5-5-5-5-6-5-5-|-5-----|-------|---6-----|-
B|-6---------------8-7-|-------------8-6-6-5-|---------------|---8-8-|-8-7-7-|-8---5-6-|-
G|---------------------|-7-------------------|---------------|-------|-------|---------|-
D|---------------------|---------------------|---------------|-------|-------|---------|-
A|---------------------|---------------------|---------------|-------|-------|---------|-
E|---------------------|---------------------|---------------|-------|-------|---------|-
http://www.guitartabcreator.com
Guitar Tab Creator is intended to store guitar tab created through the tool. It currently does not support in-line text editing. Any text you place in here will be lost. If you need to comment on your tab, please use the "Tab Notes" section located below.