Body And Soul (top line)

(/) Slide Up  (\) Slide Down  (h) Hammer On  (p) Pull Off  (b) Bend (r) Release (v) Vibrato
E|-----------|-6-6-|-------------|-11-9-8----|-9-6-----|-----|-----------6---|---|-|-
B|-4-6-4-6-4-|-----|-9-11-9-11-9-|--------11-|-----7---|-6---|-----6-9-9-----|---|-|-
G|-----------|-----|-------------|-----------|-------8-|---8-|-6-8---------9-|-6-|-|-
D|-----------|-----|-------------|-----------|---------|-----|---------------|---|-|-
A|-----------|-----|-------------|-----------|---------|-----|---------------|---|-|-
E|-----------|-----|-------------|-----------|---------|-----|---------------|---|-|-



E|-------5-5-5-5-|-10-10-----------|-----------|---|---
B|---5-7---------|-------7-10-10-8-|-7-7---5---|---|---
G|-7-------------|-----------------|-----7---6-|---|---
D|---------------|-----------------|-----------|-7-|---
A|---------------|-----------------|-----------|---|---
E|---------------|-----------------|-----------|---|---



E|-------5-5-5-|-12-12----10-10----|------------------|-------6-|-
B|---5-6-------|-------12-------10-|-13-13-10-12-12-8-|---------|-
G|-7-----------|-------------------|------------------|-9-8-7---|-
D|-------------|-------------------|------------------|---------|-
A|-------------|-------------------|------------------|---------|-
E|-------------|-------------------|------------------|---------|-



E|-----------|-6-6-|-------------|-11-9-8----|-9-6-----|-----|-----------6---|---|-
B|-4-6-4-6-4-|-----|-9-11-9-11-9-|--------11-|-----7---|-6---|-----6-9-9---5-|---|-
G|-----------|-----|-------------|-----------|-------8-|---8-|-6-8-----------|-6-|-
D|-----------|-----|-------------|-----------|---------|-----|---------------|---|-
A|-----------|-----|-------------|-----------|---------|-----|---------------|---|-
E|-----------|-----|-------------|-----------|---------|-----|---------------|---|-
http://www.guitartabcreator.com
Guitar Tab Creator is intended to store guitar tab created through the tool. It currently does not support in-line text editing. Any text you place in here will be lost. If you need to comment on your tab, please use the "Tab Notes" section located below.