All The Things You Are (rough guide)

(/) Slide Up  (\) Slide Down  (h) Hammer On  (p) Pull Off  (b) Bend (r) Release (v) Vibrato


E|---9-|---8-|---7-|---|-|---4-|---3-|---------|---|-|-
B|-9---|-8---|-6---|-5-|-|-4---|-3---|-1-4-3-1-|-0-|-|-
G|-----|-----|-----|---|-|-----|-----|---------|---|-|-
D|-----|-----|-----|---|-|-----|-----|---------|---|-|-
A|-----|-----|-----|---|-|-----|-----|---------|---|-|-
E|-----|-----|-----|---|-|-----|-----|---------|---|-|-



E|-------------|-------------|-----------|----------|-|-
B|-------15-13-|-------13-12-|-----12-10-|-----10-9-|-|-
G|----12-------|-10-11-------|---9-------|---8------|-|-
D|-12----------|-------------|-9---------|-9--------|-|-
A|-------------|-------------|-----------|----------|-|-
E|-------------|-------------|-----------|----------|-|-



E|---9-|---8-|---11-|---3-|-|-----4-|-9-----|-
B|-9---|-8---|-6----|-4---|-|-2-6---|---8-9-|-
G|-----|-----|------|-----|-|-------|-------|-
D|-----|-----|------|-----|-|-------|-------|-
A|-----|-----|------|-----|-|-------|-------|-
E|-----|-----|------|-----|-|-------|-------|-
http://www.guitartabcreator.com
Guitar Tab Creator is intended to store guitar tab created through the tool. It currently does not support in-line text editing. Any text you place in here will be lost. If you need to comment on your tab, please use the "Tab Notes" section located below.