spongebob credit theme

(/) Slide Up  (\) Slide Down  (h) Hammer On  (p) Pull Off  (b) Bend (r) Release (v) Vibrato

E|--7--6--7--9--7--
B|-----------------
G|-----------------
D|-----------------
A|-----------------
E|-----------------



E|--------------------------
B|--0--0--0--0--0--0--0--0--
G|--------------------------
D|--------------------------
A|--------------------------
E|--------------------------



E|--7--6--7--9--7--
B|-----------------
G|-----------------
D|-----------------
A|-----------------
E|-----------------



E|--12--12--14--16--14--16--14--12--12--12--14--15--15--15--14--12--
B|------------------------------------------------------------------
G|------------------------------------------------------------------
D|------------------------------------------------------------------
A|------------------------------------------------------------------
E|------------------------------------------------------------------



E|--7--6--7--9--7--7--6--7--9--7--11--11--12--
B|--------------------------------------------
G|--------------------------------------------
D|--------------------------------------------
A|--------------------------------------------
E|--------------------------------------------
http://www.guitartabcreator.com
Guitar Tab Creator is intended to store guitar tab created through the tool. It currently does not support in-line text editing. Any text you place in here will be lost. If you need to comment on your tab, please use the "Tab Notes" section located below.