Cmaj 3rd intrevals

(/) Slide Up  (\) Slide Down  (h) Hammer On  (p) Pull Off  (b) Bend (r) Release (v) Vibrato


E|-----------------------------------------------------------3--
B|-----------------------------------------3-----5--3--6--5-----
G|-----------------------2-----4--2--5--4-----5-----------------
D|-----2-----3--2--5--3-----5-----------------------------------
A|--3-----5-----------------------------------------------------
E|--------------------------------------------------------------



E|--3-----------------------
B|-----5--6--3--5-----------
G|-----------------5--------
D|--------------------------
A|--------------------------
E|--------------------------
http://www.guitartabcreator.com
Guitar Tab Creator is intended to store guitar tab created through the tool. It currently does not support in-line text editing. Any text you place in here will be lost. If you need to comment on your tab, please use the "Tab Notes" section located below.