Maroon 5 - Misery

(/) Slide Up  (\) Slide Down  (h) Hammer On  (p) Pull Off  (b) Bend (r) Release (v) Vibrato

E|-----------------------------
B|-----------------------------
G|-----------------------------
D|-----------------------------
A|--3--3--2--2--3--3--2--2--2--
E|-----------------------------



E|----------------------------------------------------------------------
B|----------------------------------------------------------------------
G|-----5-----4-----5-----4-----5-------------------4-----5-----------4--
D|----------------------------------------------------------------------
A|--3-----2-----3-----2-----3-----15--14--2--2--2-----3-----2--2--2-----
E|----------------------------------------------------------------------



E|------------------------
B|------------------------
G|------------------------
D|------------------------
A|--3--3--3--2--2--2--14--
E|------------------------



E|-----------------------------------------------
B|-----------------------------------------------
G|-----------------------------------------------
D|-----------5--7--------------5--5-----7--5-----
A|--7--7--7--------5--5--5--5--------5--------5--
E|-----------------------------------------------



E|--------------------------------------------------
B|--------------------------------------------------
G|--------------------------------------------------
D|-----------5--7--7--------------5--5-----7--5-----
A|--7--7--7-----------5--5--5--5--------5--------5--
E|--------------------------------------------------



E|--------------------------------------------------------------------
B|--------------------------------------------------------------------
G|-----------------------9--7-----------------------------------------
D|-----------5--7--7--5--------9--7--------------5--5-----7--5--------
A|--7--7--7--------------------------5--5--5--5--------5--------7--5--
E|--------------------------------------------------------------------



E|-------------------------------------------------------------------------------------------------
B|-------------------------------------------------------------------------------------------------
G|--------4-----5-------------4-----5-------------------4-----5-----------4------------------------
D|-------------------------------------------------------------------------------------------------
A|--3--2-----3-----15--14--2-----3-----15--14--2--2--2-----3-----2--2--2-----3--3--3--2--2--2--14--
E|-------------------------------------------------------------------------------------------------



E|--------------------------------------------------
B|--------------------------------------------------
G|--------------------------------------------------
D|-----------5--7--7--------------5--5-----7--5-----
A|--7--7--7-----------5--5--5--5--------5--------5--
E|--------------------------------------------------



E|--------------------------------------------------------------------
B|--------------------------------------------------------------------
G|-----------------------9--7-----------------------------------------
D|-----------5--7--7--5--------9--7--------------5--5-----7--5--------
A|--7--7--7--------------------------5--5--5--5--------5--------7--5--
E|--------------------------------------------------------------------



E|--------------------------------------
B|--------------------------------------
G|--------------------------------------
D|--------9--------7--------4-----------
A|--2--9-----0--7-----------------------
E|--------------------2--2-----3--3--3--



E|--------------------------------------
B|--------------------------------------
G|--------------------------------------
D|--------9--------7-----------------9--
A|--2--9-----0--7-----3--3--3--2--9-----
E|--------------------------------------



E|-----
B|-----
G|-----
D|--7--
A|-----
E|-----



E|--------------------------------------------------------------------
B|--------------------------------------------------------------------
G|-----------------------9--7-----------------------------------------
D|-----------5--7--7--5--------9--7--------------5--5-----7--5--------
A|--7--7--7--------------------------5--5--5--5--------5--------7--5--
E|--------------------------------------------------------------------
http://www.guitartabcreator.com
Guitar Tab Creator is intended to store guitar tab created through the tool. It currently does not support in-line text editing. Any text you place in here will be lost. If you need to comment on your tab, please use the "Tab Notes" section located below.