godfather theme

(/) Slide Up  (\) Slide Down  (h) Hammer On  (p) Pull Off  (b) Bend (r) Release (v) Vibrato


E|-----0--3--2--0--3--0--2--0-----------------0--3--2--0--3--0--2v--0--------------------0--2-----
B|--0--------------------------1--3--0v----0------------------------------------------1-----------
G|---------------------------------------------------------------------4--3--2v----2--------------
D|------------------------------------------------------------------------------------------------
A|------------------------------------------------------------------------------------------------
E|------------------------------------------------------------------------------------------------



E|--------0--0v----------------------------------------------0--0--------------2--2--0--------------
B|-----1---------------3--1--0--3--1--1--0--0v---------------------4--3v----3-----------1--0v-------
G|--2---------------0-------------------------------------------------------------------------------
D|---------------2--------------------------------1--2v---------------------------------------------
A|--------------------------------------------------------------------------------------------------
E|--------------------------------------------------------------------------------------------------



E|--------------------------------0--3--2--0--3--0--2--0-----------------0--3--2--0--3--0--2v--0--
B|--0--3--0-----------1--0v----0--------------------------1--3--0v----0---------------------------
G|-----------2v----2------------------------------------------------------------------------------
D|------------------------------------------------------------------------------------------------
A|------------------------------------------------------------------------------------------------
E|------------------------------------------------------------------------------------------------



E|--------------------0--2--------0--0v------------------------------------------------
B|-----------------1-----------1---------------3--1--0--3--1--1--0--0v-----------------
G|--4--3--2v----2-----------2---------------0------------------------------------------
D|---------------------------------------2--------------------------------1--2v--------
A|-------------------------------------------------------------------------------------
E|-------------------------------------------------------------------------------------
http://www.guitartabcreator.com
Guitar Tab Creator is intended to store guitar tab created through the tool. It currently does not support in-line text editing. Any text you place in here will be lost. If you need to comment on your tab, please use the "Tab Notes" section located below.