A team

(/) Slide Up  (\) Slide Down  (h) Hammer On  (p) Pull Off  (b) Bend (r) Release (v) Vibrato

E|--------------------------------------------------------------------------------
B|--------------0-----------------------------------0-----------3-----0-----------
G|--------2-----------------------0-----------2-----------------------------------
D|--------------------------4-----------------------------------------------------
A|-----5-----------5-----5-----------5-----5-----------5-----5-----------5--------
E|--3--------3--------3--------3--------3--------3--------3--------3--------2-----



E|-----------------------
B|--------------0--------
G|--------2--------------
D|-----------------------
A|-----2-----------2-----
E|--0--------0--------8--
http://www.guitartabcreator.com
Guitar Tab Creator is intended to store guitar tab created through the tool. It currently does not support in-line text editing. Any text you place in here will be lost. If you need to comment on your tab, please use the "Tab Notes" section located below.