Skyrim Main Theme on Acoustic Guitar PART 2

E|----------------------------------------------0---0-3-5---3-7-5-------------------------------
B|------------------------------------0-1---1-3-1---1-1-3---3-5-3---0-1--0-1---3-0-0-1--0-1--0-1
G|--------------------0-------------2---2---2-2-0---0-0-2---2-4-2---2-2--2-2---2-2-2-2--2-2--2-2
D|------------0-2---2---0-----------4---2---2-2---------0---0-0-0---2-2--2-2---2-2-2-2--2-2--2-2
A|--0-2-3---3---3---3-------3-2-5---5---0---0-0-3---3-3-------------0-0--0-0---0-0-0-0--0-0--0-0
E|------3---3-----------3-------5---5-----------------------------------------------------------

E|-------------------------------0--0-0--0-1--1-1----0----0----0-----–>-arpeggios-start->-------
B|---3-0-0-1--3---3---3-1-0-1-3--1--1-1--1-1--1-1----1----1----1--------1---0-------0---------1-
G|---2-2-2-2--2---2---2-2-2-2-2--2--2-2--2-2--2-2----2----2----2--------2---2---2---0----0----2-
D|---2-2-2-2--2---2---2-2-2-2-2--2--2-2--2-2--2-2----2----2----2--------2---2---2---0----0----2-
A|---0-0-0-0--0---0---0-0-0-0-0--0--0-0--0-0--0-0--0----0----0----0-0---0---0---0-------------0-
E|----------------------------------------------------------------------------------3----3------

E|--------0--->arpeggios-end>--------------------------------0-----0-3--3-3--3--0-0-0-0-0-0-0-0
B|---3----0--------0--1-----0--------0-----0--1-----1-3----3-0-----0-0--0-0--0--1-1-1-1-1-1-1-1
G|---2----0-----2-----------------0-----2-----------2-2----2-0-----0-0--0-0--0--2-2-2-2-2-2-2-2
D|---2------------2--2--2-2---0-0---0--0--2--2--2-2-2-2-2-2------------------------------------
A|---0-----------0--0--0-0-0-------------0--0--0-0----0-0-0-----2-2------------0---3---2-------
E|--------3------------------3-3-3-3--3----------------------3-3-3-3-3--3-3----------------3---

E|-0-0-0-0-0-0-0-0-----------------------------------------------------------0---0-3-----------
B|-1-1-1-1-1-1-1-1--1-1-1-1-1-1-0-0-0-0-0-0-1-1-1-1-1-1-3-3-3-3----0-1---1-3-1---1-1-3---1-0---
G|-2-2-2-2-2-2-2-2--2-2-2-2-2-2-2-2-2-2-2-2-2-2-2-2-2-2-2-2-2-2--2---2---2-2-0---0-0-0---0-0-2-
D|------------------2-2-2-2-2-2-2-2-2-2-2-2-2-2-2-2-2-2-2-2-2-2--2---2---2-2---------0---0-0-4-
A|0---3---2---------0-----------0-----------0-----------0------------0-------3---3-3---------5-
E|------------3----------------------------------------------------------------------3---3-3-5-

E|--------------0---0-3-5---3-7-5--------------------------------------------------------------
B|----0-1---1-3-1---1-1-3---3-5-3-----0-1-0------------------------1-0-1---1-0-1---0-1-3-1-0---
G|--2-0-2---2-2-0---0-0-2---2-4-2---2---2---2-0--------------------2---2---2---2---2---0-0-0-2-
D|--4---2---2-----------0-------0---2---2---2-2-3-2-0-----2-0------2---2---2---2---2---0-0-0-2-
A|--5---0---0---3---3-3-----------------0-----3-----2---3---2----------0-0-----0-0-----------0-
E|--5-----------------------------------------------3-------3---3----------------------3-------

E|---------------------------------------------------------------------------------------------
B|-----------------------0-1-------1-0-1--1-1-1-0-1---0-1-3-1-0-------------------------0-1----
G|--2-0-2---2-0-2----0-2-0-0-0-2---2---2----------2---2---0-0-0-2---2-0-2---2-0-2---0-2-0-0-0-2
D|------3-------0-0------0-0-0-2-------2----------2---2---0-0-0-2-------3---0---0-0-----0-0-0-2
A|0-----3----------------------0-0-----0----------0-0-----------0-0-----3---------------------0
E|------1-1--------------3--------------------------------3-------------1-1-------------3------

E|----0---0---0------>arpeggios-start>---0-------------0--5-3-1-0------2--2-2-2-2-5--5--5--5---2
B|----1---1---1------------0---1----0----0-------0--1--1--1-1-1-3---3--3--3-3-3-3-3--3--3--3---3
G|--2---2---2----2-2---2---2---2----0----0----2--2--2--2--2-2-2-2---2--2--2-2-2-2-2--2--2--2---2
D|--2---2---2----2-2---2---2---2----0----0----2--2--2--2--------0---0--0--0-0-0-0-0--0--0--0---0
A|--0-0-0-0-0-0--0-0---0---0---0---------2----0--0--0--0----------------------------------------
E|----------------------------------3----3----------------1-1-1---------------------------------













Congratz, now you`ve become a Skyrim Bard IRL!

David

Guitar Tab Creator is intended to store guitar tab created through the tool. It currently does not support in-line text editing. Any text you place in here will be lost. If you need to comment on your tab, please use the "Tab Notes" section located below.